Le sitePhotosAccueilCalendrierFAQRechercherS'enregistrerMembresGroupesConnexionLa carte
Retrouvez nous sur Facebook...
Newsletter
La newsletter du forum n'étant plus
distribuée, inscrivez-vous sur celle
ci-dessous !

Derniers sujets
» 09/03/19 Jazz Club - Louvigné du désert (35)
la maison sur le port EmptyDim 10 Mar - 22:19 par wallace

» La tête du patron !
la maison sur le port EmptySam 28 Avr - 11:35 par wallace

» Vinicircus le 27/4 près de Rennes
la maison sur le port EmptySam 28 Avr - 11:31 par wallace

» Sanseverino sur guitarmag.com
la maison sur le port EmptyMer 15 Nov - 13:45 par rvdud

» Le Pont des Artistes 2017
la maison sur le port EmptyMer 15 Nov - 13:29 par rvdud

» 19/10/2017 à 20h - Le Pont des Artistes
la maison sur le port EmptyDim 10 Sep - 17:01 par rvdud

Qui est en ligne ?
Il y a en tout 2 utilisateurs en ligne :: 0 Enregistré, 0 Invisible et 2 Invités

Aucun

Le record du nombre d'utilisateurs en ligne est de 68 le Mar 3 Avr - 14:34
Les concerts à venir

TOURNEE MONTREUIL / MEMPHIS 2017

05/10/2017 METZ (57)
06/10/2017 ABLON (94)
07/10/2017 ST-OUEN (93)
14/10/2017 LIMOGES (87)
18/10/2017 NOISY-LE-SEC (93)
20/10/2017 MONTPELLIER (34)
10/11/2017 TREGUEUX (22)
11/11/2017 SAINT MARS LA JAILLE (44)
14/11/2017 CEBAZAT (63)
15/11/2017 POLIGNY (39)
16/11/2017 IZEURE (03)
17/11/2017 DECINES (69)
23/11/2017 SAINT MAURICE L'EXIL (38)
24/11/2017 LE GARRIC (81)
25/11/2017 LE HAILLAN (33)
27/11/2017 PARIS (75) BATACLAN
02/12/2017 CLAMECY (58)
12/01/2018 PITHIVIERS (45)
13/01/2018 THONON (74)
14/01/2018 TINQUEUX (51)
19/01/2018 BRIGNAIS (69)
20/01/2018 LA CIOTAT (13)
23/01/2018 SOTTEVILLE LES ROUEN (76)
24/01/2018 LUCON (85)
25/01/2018 ST PIERRE DES CORPS (37)
26/01/2018 SAINT OUEN L'AUMONE (95)
27/01/2018 LENS (62)
01/02/2018 LA RAVOIRE (73)
02/02/2018 LE BROC 506)
03/02/2018 FEURS (42)
08/02/2018 ABBEVILLE (80)
09/02/2018 MONS EN BAROEUL (59)
08/03/2018 POITIERS (86)
09/03/2018 ROUILLAC 516)
10/03/2018 JANZE (35)
22/03/2018 LUXEMBOURG (LU)
23/03/2018 CORBEIL ESSONNE (91)
24/03/2018 AUBERGENVILLE (78)
29/03/2018 GENNEVILLIERS (92)
30/03/2018 GRANDE SYNTHE (59)
05/04/2018 CORNEBARRIEU (31)
06/04/2018 LA SOUTERRAINE (23)
07/04/2018 CHARTRES (28)
12/05/2018 SAINT-LOUIS (68)


Liens amis
Concours Ma Fleur
Concours Rimini
.........
Concours La java des bombes atomiques
Concours Frida
Voici les premières participations au concours proposé par Stef !
 
 
Statistiques
Nous avons 678 membres enregistrés
L'utilisateur enregistré le plus récent est ItineraireBis

Nos membres ont posté un total de 63054 messages dans 2225 sujets

Partagez
 

 la maison sur le port

Aller en bas 
AuteurMessage
stefasn
Gratouilleur(lleuse)
Gratouilleur(lleuse)
stefasn

Masculin Nombre de messages : 61
Age : 57
Localisation : saint omer 62
Emploi : conseiller en formation
Date d'inscription : 04/11/2006

la maison sur le port Empty
MessageSujet: la maison sur le port   la maison sur le port EmptyJeu 21 Déc - 21:57

Trio pour ceux qui ont guitar pro

Cliquez ici pour télécharger 2006121904La maison sur le port.gp4
Revenir en haut Aller en bas
Voir le profil de l'utilisateur
Emmbe
Gratouilleur(lleuse)
Gratouilleur(lleuse)


Masculin Nombre de messages : 2
Age : 51
Date d'inscription : 31/01/2007

la maison sur le port Empty
MessageSujet: Re: la maison sur le port   la maison sur le port EmptyMer 31 Jan - 20:15

Hello

Je n'ai pas Guitar pro… quelqu'un pourrait indiquer les accord? Ce serait génial.

Il est terrible ce forum!
Revenir en haut Aller en bas
Voir le profil de l'utilisateur
François
Suprême swingueur (gueuse)
Suprême swingueur (gueuse)
François

Masculin Nombre de messages : 1572
Age : 43
Localisation : Clichy-la-Garenne
Date d'inscription : 19/12/2006

la maison sur le port Empty
MessageSujet: Re: la maison sur le port   la maison sur le port EmptyMer 31 Jan - 20:35

D7/// G/// D7/// G/// (X2)
D7/// G/G#m6/ Am6/D7/ G///

Guitare2
Revenir en haut Aller en bas
Voir le profil de l'utilisateur
lo
Suprême swingueur (gueuse)
Suprême swingueur (gueuse)
lo

Féminin Nombre de messages : 1395
Age : 54
Localisation : Bourgogne
Date d'inscription : 18/01/2007

la maison sur le port Empty
MessageSujet: Re: la maison sur le port   la maison sur le port EmptyMer 31 Jan - 20:39

Je n'ai pas non plus Guitare Pro alors merci aussi flower flower
Revenir en haut Aller en bas
Voir le profil de l'utilisateur
Corto
Suprême swingueur (gueuse)
Suprême swingueur (gueuse)
Corto

Masculin Nombre de messages : 1273
Age : 57
Localisation : Anjou..feu
Emploi : Grand voyageur immobile
Date d'inscription : 10/11/2006

la maison sur le port Empty
MessageSujet: Re: la maison sur le port   la maison sur le port EmptyMer 31 Jan - 22:25

Voila ce que ça donne :

Code:

    W                  W                  Q    Q    Q    Q   
E||-------------------|-------------------|----------------------|
B||-------------------|-------------------|-------5---------5----|
G||-------------------|-------------------|-------5---------5----|
D||-------------------|-------------------|-------4---------4----|
A||-------------------|-------------------|----------------------|
E||-------------------|-------------------|--5---------5---------|


  Q    Q    Q    Q      Q    Q    Q    Q      Q    Q    Q    Q   
----------------------|----------------------|----------------------|
-------5---------5----|-------3---------3----|-------3---------3----|
-------5---------5----|-------4---------4----|-------4---------4----|
-------4---------4----|-------5---------5----|-------5---------3----|
----------------------|-------5---------5----|-------5--------------|
--5---------5---------|--3---------3---------|--3---------4---------|


  Q    Q    Q    Q      Q    Q    Q    Q      Q    Q    Q    Q   
----------------------|----------------------|----------------------|
-------5---------5----|-------3---------3----|-------3---------3----|
-------5---------5----|-------5---------5----|-------4---------4----|
-------4---------4----|-------4---------4----|-------5---------5----|
----------------------|--5---------5---------|-------5---------5----|
--5---------5---------|----------------------|--3---------3---------|


  Q    Q    Q    Q      Q    Q    Q    Q      Q    Q    Q    Q   
----------------------|----------------------|----------------------|
-------3---------3----|-------5---------5----|-------5---------5----|
-------4---------4----|-------5---------5----|-------5---------5----|
-------5---------3----|-------4---------4----|-------4---------4----|
-------5--------------|----------------------|----------------------|
--3---------4---------|--5---------5---------|--5---------5---------|


  Q    Q    Q    Q      Q    Q    Q    Q      Q    Q    Q    Q   
----------------------|----------------------|----------------------|
-------3---------3----|-------3---------3----|-------5---------5----|
-------4---------4----|-------4---------4----|-------5---------5----|
-------5---------5----|-------5---------3----|-------4---------4----|
-------5---------5----|-------5--------------|----------------------|
--3---------3---------|--3---------4---------|--5---------5---------|


  Q    Q    Q    Q      W                  E  E  E  E  E  E  E  E 
----------------------|-------------------|--------------------------|
-------3---------3----|--3----------------|--3--5--------------------|
-------5---------5----|--4----------------|--------5--7--4--5--2--4--|
-------4---------4----|--5----------------|--------------------------|
--5---------5---------|--5----------------|--------------------------|
----------------------|--3----------------|--------------------------|


  W                  W                  Q    Q    Q    Q   
-------------------|-------------------|----------------------|
-------------------|-------------------|-------5---------5----|
-------------------|-------------------|-------5---------5----|
--5----------------|-------------------|-------4---------4----|
-------------------|-------------------|----------------------|
-------------------|-------------------|--5---------5---------|


  Q    Q    Q    Q      Q    Q    Q    Q      Q    Q    Q    Q   
----------------------|----------------------|----------------------|
-------5---------5----|-------3---------3----|-------3---------3----|
-------5---------5----|-------4---------4----|-------4---------4----|
-------4---------4----|-------5---------5----|-------5---------3----|
----------------------|-------5---------5----|-------5--------------|
--5---------5---------|--3---------3---------|--3---------4---------|


  Q    Q    Q    Q      Q    Q    Q    Q      Q    Q    Q    Q   
----------------------|----------------------|----------------------|
-------5---------5----|-------3---------3----|-------3---------3----|
-------5---------5----|-------5---------5----|-------4---------4----|
-------4---------4----|-------4---------4----|-------5---------5----|
----------------------|--5---------5---------|-------5---------5----|
--5---------5---------|----------------------|--3---------3---------|


  Q    Q    Q    Q      Q    Q    Q    Q      Q    Q    Q    Q   
----------------------|----------------------|----------------------|
-------3---------3----|-------5---------5----|-------5---------5----|
-------4---------4----|-------5---------5----|-------5---------5----|
-------5---------3----|-------4---------4----|-------4---------4----|
-------5--------------|----------------------|----------------------|
--3---------4---------|--5---------5---------|--5---------5---------|


  Q    Q    Q    Q      Q    Q    Q    Q      Q    Q    Q    Q   
----------------------|----------------------|----------------------|
-------3---------3----|-------3---------3----|-------5---------5----|
-------4---------4----|-------4---------4----|-------5---------5----|
-------5---------5----|-------5---------3----|-------4---------4----|
-------5---------5----|-------5--------------|----------------------|
--3---------3---------|--3---------4---------|--5---------5---------|


  Q    Q    Q    Q      W                                   
----------------------|-------------------|-------------------|
-------3---------3----|--3----------------|-------------------|
-------5---------5----|--4----------------|-------------------|
-------4---------4----|--5----------------|-------------------|
--5---------5---------|--5----------------|-------------------|
----------------------|--3----------------|-------------------|


  Q    Q    Q    Q      Q    Q    Q    Q      Q    Q    Q    Q   
----------------------|----------------------|----------------------|
-------5---------5----|-------5---------5----|-------3---------3----|
-------5---------5----|-------5---------5----|-------4---------4----|
-------4---------4----|-------4---------4----|-------5---------5----|
----------------------|----------------------|-------5---------5----|
--5---------5---------|--5---------5---------|--3---------3---------|


  Q    Q    Q    Q      Q    Q    Q    Q      Q    Q    Q    Q   
----------------------|----------------------|----------------------|
-------3---------3----|-------5---------5----|-------3---------3----|
-------4---------4----|-------5---------5----|-------5---------5----|
-------5---------3----|-------4---------4----|-------4---------4----|
-------5--------------|----------------------|--5---------5---------|
--3---------4---------|--5---------5---------|----------------------|


  Q    Q    Q    Q      Q    Q    Q    Q      Q    Q    Q    Q   
----------------------|----------------------|----------------------|
-------3---------3----|-------3---------3----|-------5---------5----|
-------4---------4----|-------4---------4----|-------5---------5----|
-------5---------5----|-------5---------3----|-------4---------4----|
-------5---------5----|-------5--------------|----------------------|
--3---------3---------|--3---------4---------|--5---------5---------|


  Q    Q    Q    Q      Q    Q    Q    Q      Q    Q    Q    Q   
----------------------|----------------------|----------------------|
-------5---------5----|-------3---------3----|-------3---------3----|
-------5---------5----|-------4---------4----|-------4---------4----|
-------4---------4----|-------5---------5----|-------5---------3----|
----------------------|-------5---------5----|-------5--------------|
--5---------5---------|--3---------3---------|--3---------4---------|


  Q    Q    Q    Q      Q    Q    Q    Q      Q    Q    Q    Q   
----------------------|----------------------|----------------------|
-------5---------5----|-------3---------3----|-------3---------3----|
-------5---------5----|-------5---------5----|-------4---------4----|
-------4---------4----|-------4---------4----|-------5---------5----|
----------------------|--5---------5---------|-------5---------5----|
--5---------5---------|----------------------|--3---------3---------|


  Q    Q    Q    Q      Q    Q    Q    Q      Q    Q    Q    Q   
----------------------|----------------------|----------------------|
-------3---------3----|-------5---------5----|-------5---------5----|
-------4---------4----|-------5---------5----|-------5---------5----|
-------5---------3----|-------4---------4----|-------4---------4----|
-------5--------------|----------------------|----------------------|
--3---------4---------|--5---------5---------|--5---------5---------|


  Q    Q    Q    Q      Q    Q    Q    Q      Q    Q    Q    Q   
----------------------|----------------------|----------------------|
-------3---------3----|-------3---------3----|-------5---------5----|
-------4---------4----|-------4---------4----|-------5---------5----|
-------5---------5----|-------5---------3----|-------4---------4----|
-------5---------5----|-------5--------------|----------------------|
--3---------3---------|--3---------4---------|--5---------5---------|


  Q    Q    Q    Q      W                                   
----------------------|-------------------|-------------------|
-------3---------3----|--3----------------|-------------------|
-------5---------5----|--4----------------|-------------------|
-------4---------4----|--5----------------|-------------------|
--5---------5---------|--5----------------|-------------------|
----------------------|--3----------------|-------------------|


  Q    Q    Q    Q      Q    Q    Q    Q      Q    Q    Q    Q   
----------------------|----------------------|----------------------|
-------5---------5----|-------5---------5----|-------3---------3----|
-------5---------5----|-------5---------5----|-------4---------4----|
-------4---------4----|-------4---------4----|-------5---------5----|
----------------------|----------------------|-------5---------5----|
--5---------5---------|--5---------5---------|--3---------3---------|


  Q    Q    Q    Q      Q    Q    Q    Q      Q    Q    Q    Q   
----------------------|----------------------|----------------------|
-------3---------3----|-------5---------5----|-------3---------3----|
-------4---------4----|-------5---------5----|-------5---------5----|
-------5---------3----|-------4---------4----|-------4---------4----|
-------5--------------|----------------------|--5---------5---------|
--3---------4---------|--5---------5---------|----------------------|


  Q    Q    Q    Q      Q    Q    Q    Q      Q    Q    Q    Q   
----------------------|----------------------|----------------------|
-------6---------6----|-------6---------6----|-------5---------5----|
-------6---------6----|-------6---------6----|-------5---------5----|
-------5---------5----|-------5---------5----|-------4---------4----|
----------------------|----------------------|----------------------|
--6---------6---------|--6---------6---------|--5---------5---------|


  Q    Q    Q    Q      W                                   
----------------------|-------------------|-------------------|
-------3---------3----|--3----------------|-------------------|
-------5---------5----|--4----------------|-------------------|
-------4---------4----|--5----------------|-------------------|
--5---------5---------|--5----------------|-------------------|
----------------------|--3----------------|-------------------|


  Q    Q    Q    Q      Q    Q    Q    Q      Q    Q    Q    Q   
----------------------|----------------------|----------------------|
-------5---------5----|-------5---------5----|-------3---------3----|
-------5---------5----|-------5---------5----|-------4---------4----|
-------4---------4----|-------4---------4----|-------5---------5----|
----------------------|----------------------|-------5---------5----|
--5---------5---------|--5---------5---------|--3---------3---------|


  Q    Q    Q    Q      Q    Q    Q    Q      Q    Q    Q    Q   
----------------------|----------------------|----------------------|
-------3---------3----|-------5---------5----|-------5---------5----|
-------4---------4----|-------5---------5----|-------5---------5----|
-------5---------3----|-------4---------4----|-------4---------4----|
-------5--------------|----------------------|----------------------|
--3---------4---------|--5---------5---------|--5---------5---------|


  Q    Q    Q    Q      Q    Q    Q    Q      Q    Q    Q    Q   
----------------------|----------------------|----------------------|
-------3---------3----|-------3---------3----|-------5---------5----|
-------4---------4----|-------4---------4----|-------5---------5----|
-------5---------5----|-------5---------3----|-------4---------4----|
-------5---------5----|-------5--------------|----------------------|
--3---------3---------|--3---------4---------|--5---------5---------|


  Q    Q    Q    Q      Q    Q    Q    Q      Q    Q    Q    Q   
----------------------|----------------------|----------------------|
-------5---------5----|-------3---------3----|-------3---------3----|
-------5---------5----|-------4---------4----|-------4---------4----|
-------4---------4----|-------5---------5----|-------5---------3----|
----------------------|-------5---------5----|-------5--------------|
--5---------5---------|--3---------3---------|--3---------4---------|


  Q    Q    Q    Q      Q    Q    Q    Q                     
----------------------|----------------------|-------|-------||
-------5---------5----|-------3---------3----|-------|-------||
-------5---------5----|-------5---------5----|-------|-------||
-------4---------4----|-------4---------4----|-------|-------||
----------------------|--5---------5---------|-------|-------||
--5---------5---------|----------------------|-------|-------||

Revenir en haut Aller en bas
Voir le profil de l'utilisateur
Corto
Suprême swingueur (gueuse)
Suprême swingueur (gueuse)
Corto

Masculin Nombre de messages : 1273
Age : 57
Localisation : Anjou..feu
Emploi : Grand voyageur immobile
Date d'inscription : 10/11/2006

la maison sur le port Empty
MessageSujet: Re: la maison sur le port   la maison sur le port EmptyMer 31 Jan - 22:28

Arpege :

Code:

                    E  E  E  E  E  E  E  E    E  E  E  E  E  E  E  E 
E||-------|-------|--------------------------|--------------------------|
B||-------|-------|-----------5--L-----------|-----------5--L-----------|
G||-------|-------|--------5--------5--------|--------5--------5--------|
D||-------|-------|-----7--------------7--L--|-----7--------------7--L--|
A||-------|-------|--7-----------------------|--7-----------------------|
E||-------|-------|--------------------------|--------------------------|


  E  E  E  E  E  E  E  E    E  E  E  E  E  E  E  E 
--------------------------|--------------------------|
-----------3--L-----------|-----------3-----------6--|
--------4--------4--------|--------4-----------4-----|
-----5--------------5--L--|-----5-----------6--------|
--5-----------------------|--5-----------5-----------|
--------------------------|--------------------------|


  E  E  E  E  E  E  E  E    E  E  E  E  E  E  E  E 
--------------------------|--------------------------|
-----------5--L-----------|-----------3--L-----------|
--------5--------5--------|--------5--------5--------|
-----7--------------7--L--|-----4--------------4--L--|
--7-----------------------|--5-----------------------|
--------------------------|--------------------------|


  E  E  E  E  E  E  E  E    E  E  E  E  E  E  E  E 
--------------------------|--------------------------|
-----------3--L-----------|-----------3-----------6--|
--------4--------4--------|--------4-----------4-----|
-----5--------------5--L--|-----5-----------6--------|
--5-----------------------|--5-----------5-----------|
--------------------------|--------------------------|


  E  E  E  E  E  E  E  E    E  E  E  E  E  E  E  E 
--------------------------|--------------------------|
-----------5--L-----------|-----------5--L-----------|
--------5--------5--------|--------5--------5--------|
-----7--------------7--L--|-----7--------------7--L--|
--7-----------------------|--7-----------------------|
--------------------------|--------------------------|


  E  E  E  E  E  E  E  E    E  E  E  E  E  E  E  E 
--------------------------|--------------------------|
-----------3--L-----------|-----------3-----------6--|
--------4--------4--------|--------4-----------4-----|
-----5--------------5--L--|-----5-----------6--------|
--5-----------------------|--5-----------5-----------|
--------------------------|--------------------------|


  E  E  E  E  E  E  E  E    E  E  E  E  E  E  E  E    W               
--------------------------|--------------------------|-------------------|
-----------5--L-----------|-----------3--L-----------|--3----------------|
--------5--------5--------|--------5--------5--------|--4----------------|
-----7--------------7--L--|-----4--------------4--L--|--5----------------|
--7-----------------------|--5-----------------------|--5----------------|
--------------------------|--------------------------|--3----------------|


  E  E  E  E  E  E  E  E      W                  W               
--10--12--------------------------|--------------------|-------------------|
----------13--15--12--13--10--12--|--------------------|-------------------|
----------------------------------|--12----------------|-------------------|
----------------------------------|--------------------|-------------------|
----------------------------------|--------------------|-------------------|
----------------------------------|--------------------|-------------------|


          >                                        >                     
          W                                        W                     
-----|---------------------|-------------------|---------------------|-----|
-----|---------------------|-------------------|---------------------|-----|
-----|--<>7----------------|-------------------|--<>5----------------|-----|
-----|---------------------|-------------------|---------------------|-----|
-----|---------------------|-------------------|---------------------|-----|
-----|---------------------|-------------------|---------------------|-----|


          NH                  tr            tr                 
          W                    H            H                 
-----|---------------------|--13(13)--------15(15)--------|-----|
-----|---------------------|------------------------------|-----|
-----|--<>7----------------|------------------------------|-----|
-----|---------------------|------------------------------|-----|
-----|---------------------|------------------------------|-----|
-----|---------------------|------------------------------|-----|


    NH                                                    >         
    W                  E  E  E  E  E  E  Q      H        H         
---------------------|-------------------------|---------------------|
---------------------|-----------3--L----------|---------------------|
--<>7----------------|-----0-----------0-------|---------------------|
---------------------|--0-----0-----------0----|---------------------|
---------------------|-------------------------|---------------------|
---------------------|-------------------------|-----------4~--------|


  E  E  E  E  E  E  E  E    H        H          H        E  S  S  S  S E 
--------------------------|--------------------|--------------12-12-12-10----|
-----------------------3--|--5--------3--------|---------------5--5--5--3-L--|
--------------2--4--5-----|--------------------|--0--------------------------|
-----------2--------------|--------------------|-----------------------------|
--0--2--3-----------------|--------------------|-----------------------------|
--------------------------|--------------------|-----------------------------|


                                            >                             
  E  S  S  S  S E  E  S  S  S  S E      E  E  Q    E  S  S  S  S E 
--14--12-12-12-10----14--12-12-12-10----|--14-----14-------12-12-12-10----|
---7---5--5--5--3-L---7---5--5--5--3-L--|---7--L---7--------5--5--5--3-L--|
----------------------------------------|---------------------------------|
----------------------------------------|---------------------------------|
----------------------------------------|---------------------------------|
----------------------------------------|---------------------------------|


                                            >                             
  E  S  S  S  S E  E  S  S  S  S E      E  E  Q    E  S  S  S  S E 
--14--12-12-12-10----14--12-12-12-10----|--15-----15-------12-12-12-10----|
---7---5--5--5--3-L---7---5--5--5--3-L--|---8--L---8--------5--5--5--3-L--|
----------------------------------------|---------------------------------|
----------------------------------------|---------------------------------|
----------------------------------------|---------------------------------|
----------------------------------------|---------------------------------|


                                            >                             
  E  S  S  S  S E  E  S  S  S  S E      E  E  Q    E  S  S  S  S E 
--15--12-12-12-10----15--12-12-12-10----|--14-----14-------12-12-12-10----|
---8---5--5--5--3-L---8---5--5--5--3-L--|---7--L---7--------5--5--5--3-L--|
----------------------------------------|---------------------------------|
----------------------------------------|---------------------------------|
----------------------------------------|---------------------------------|
----------------------------------------|---------------------------------|


  E  E  E  E  E  E  E  E      W                                   
--10--12--------------------------|--------------------|-------------------|
---3---5--13--15--12--13--10--12--|--------------------|-------------------|
-----------5---7---4---5---2---4--|--12----------------|-------------------|
----------------------------------|---5----------------|-------------------|
----------------------------------|--------------------|-------------------|
----------------------------------|--------------------|-------------------|


-------------------|-------------------|-------------------|-------------------|
-------------------|-------------------|-------------------|-------------------|
-------------------|-------------------|-------------------|-------------------|
-------------------|-------------------|-------------------|-------------------|
-------------------|-------------------|-------------------|-------------------|
-------------------|-------------------|-------------------|-------------------|


-------------------|-------------------|-------------------|-------------------|
-------------------|-------------------|-------------------|-------------------|
-------------------|-------------------|-------------------|-------------------|
-------------------|-------------------|-------------------|-------------------|
-------------------|-------------------|-------------------|-------------------|
-------------------|-------------------|-------------------|-------------------|


-------------------|-------------------|-------------------|-------------------|
-------------------|-------------------|-------------------|-------------------|
-------------------|-------------------|-------------------|-------------------|
-------------------|-------------------|-------------------|-------------------|
-------------------|-------------------|-------------------|-------------------|
-------------------|-------------------|-------------------|-------------------|



Revenir en haut Aller en bas
Voir le profil de l'utilisateur
Corto
Suprême swingueur (gueuse)
Suprême swingueur (gueuse)
Corto

Masculin Nombre de messages : 1273
Age : 57
Localisation : Anjou..feu
Emploi : Grand voyageur immobile
Date d'inscription : 10/11/2006

la maison sur le port Empty
MessageSujet: Re: la maison sur le port   la maison sur le port EmptyMer 31 Jan - 22:29

Suite et fin

Code:


                                          H        E  S  S  S  S E 
-------------------|-------------------|--------------12-12-12-10----|
-------------------|-------------------|---------------5--5--5--3-L--|
-------------------|-------------------|--0--------------------------|
-------------------|-------------------|-----------------------------|
-------------------|-------------------|-----------------------------|
-------------------|-------------------|-----------------------------|


                                            >                             
  E  S  S  S  S E  E  S  S  S  S E      E  E  Q    E  S  S  S  S E 
--14--12-12-12-10----14--12-12-12-10----|--14-----14-------12-12-12-10----|
---7---5--5--5--3-L---7---5--5--5--3-L--|---7--L---7--------5--5--5--3-L--|
----------------------------------------|---------------------------------|
----------------------------------------|---------------------------------|
----------------------------------------|---------------------------------|
----------------------------------------|---------------------------------|


                                            >                             
  E  S  S  S  S E  E  S  S  S  S E      E  E  Q    E  S  S  S  S E 
--14--12-12-12-10----14--12-12-12-10----|--15-----15-------12-12-12-10----|
---7---5--5--5--3-L---7---5--5--5--3-L--|---8--L---8--------5--5--5--3-L--|
----------------------------------------|---------------------------------|
----------------------------------------|---------------------------------|
----------------------------------------|---------------------------------|
----------------------------------------|---------------------------------|


                                            >                             
  E  S  S  S  S E  E  S  S  S  S E      E  E  Q    E  S  S  S  S E 
--15--12-12-12-10----15--12-12-12-10----|--14-----14-------12-12-12-10----|
---8---5--5--5--3-L---8---5--5--5--3-L--|---7--L---7--------5--5--5--3-L--|
----------------------------------------|---------------------------------|
----------------------------------------|---------------------------------|
----------------------------------------|---------------------------------|
----------------------------------------|---------------------------------|


  E  E  E  E  E  E  E  E      W                               
--10--12--------------------------|--------------------|-------|-------|
---3---5--13--15--12--13--10--12--|--------------------|-------|-------|
-----------5---7---4---5---2---4--|--13----------------|-------|-------|
----------------------------------|---6----------------|-------|-------|
----------------------------------|--------------------|-------|-------|
----------------------------------|--------------------|-------|-------|


  E  E  E  E  E  E  E  E      W               
--10--12--------------------------|--------------------|
---3---5--13--15--12--13--10--12--|--------------------|
-----------5---7---4---5---2---4--|--12----------------|
----------------------------------|---5----------------|
----------------------------------|--------------------|
----------------------------------|--------------------|


  E  E  E  E  E  E  E  E    E  E  E  E  Q    Q      E  E  E  Q    E  E  E 
--------------------------|-----8--L-----8---------|-----8-----------8--L-----|
--------------5--L--6--L--|--7--------7------------|--------6h--7----------7--|
-----7--L--7--------------|------------------------|--------------------------|
--------------------------|------------------------|--------------------------|
--------------------------|------------------------|--------------------------|
--------------------------|------------------------|--------------------------|


                                                                tr         
  E  Q    E  H          E  E  E  E  E  E  E  E    H        H           
--------------10--------|-----------10--L-----------|-----------8(8)--------|
--7s--8----L------------|-----8--L---------8--L--7--|--L--------------------|
------------------------|---------------------------|-----------------------|
------------------------|---------------------------|-----------------------|
------------------------|---------------------------|-----------------------|
------------------------|---------------------------|-----------------------|


  E  E  E  E  E  E  E  E      E  E  E  S  S  S E  E  S  S  S 
-----10---L--10--10---L--10--L--|--10--L--10--10p-8h-10-7--8--7h-8p-7-|
--------------------------------|-------------------------------------|
--------------------------------|-------------------------------------|
--------------------------------|-------------------------------------|
--------------------------------|-------------------------------------|
--------------------------------|-------------------------------------|


  E  E  E  E  E  E  E  E    H        E  E  S  S  S S 
--------------------------12--12--|---------------------------|
--10--10~-----10--10--10--10--10--|-----------8--L--7h-8p-7-L-|
---------------9---9---9----------|---------------------------|
----------------------------------|---------------------------|
----------------------------------|---------------------------|
----------------------------------|---------------------------|


  S  S  S S S  S  S S Q    E  E      E  E  E  E  E  E  E  E 
----------------------------------|------------------10--12--14--15--|
--5h-7p-5-L-3h-5p-3-L-3-------10--|------10--12--13------------------|
----------------------------------|--12------------------------------|
----------------------------------|----------------------------------|
----------------------------------|----------------------------------|
----------------------------------|----------------------------------|


  E  Q.      Q    S  S  S S    S  S  S S E  S  S  S S E  Q   
-------------------------------|----------------------------------|
-------------------------------|----------------------------------|
-----12b------------9h-12p-9-L-|--9h-10p-9-L----5h-7p-5-L----5----|
--------------12---------------|----------------------------------|
-------------------------------|----------------------------------|
-------------------------------|----------------------------------|


  E  E  E  E  E  E  E  E      W                                     
--10--12--------------------------|--------------------|-------------------||
---3---5--13--15--12--13--10--12--|--------------------|-------------------||
-----------5---7---4---5---2---4--|--12----------------|-------------------||
----------------------------------|---5----------------|-------------------||
----------------------------------|--------------------|-------------------||
----------------------------------|--------------------|-------------------||




Cool
Revenir en haut Aller en bas
Voir le profil de l'utilisateur
Corto
Suprême swingueur (gueuse)
Suprême swingueur (gueuse)
Corto

Masculin Nombre de messages : 1273
Age : 57
Localisation : Anjou..feu
Emploi : Grand voyageur immobile
Date d'inscription : 10/11/2006

la maison sur le port Empty
MessageSujet: Re: la maison sur le port   la maison sur le port EmptyMer 31 Jan - 22:33

Au fait, merci stefasn pour le fichier !! Cool
Revenir en haut Aller en bas
Voir le profil de l'utilisateur
bilou
Suprême swingueur (gueuse)
Suprême swingueur (gueuse)
bilou

Masculin Nombre de messages : 2625
Age : 49
Localisation : à l'ouest
Emploi : chapelier fou
Date d'inscription : 30/08/2006

la maison sur le port Empty
MessageSujet: Re: la maison sur le port   la maison sur le port EmptyMer 31 Jan - 22:57

il y a des post je comprends rien........

enfin moi je dis ca je dis rien

lol! lol! lol!
Revenir en haut Aller en bas
Voir le profil de l'utilisateur
Emmbe
Gratouilleur(lleuse)
Gratouilleur(lleuse)


Masculin Nombre de messages : 2
Age : 51
Date d'inscription : 31/01/2007

la maison sur le port Empty
MessageSujet: Re: la maison sur le port   la maison sur le port EmptyJeu 1 Fév - 12:54

Houla… merci pour les tab. Génial.
Revenir en haut Aller en bas
Voir le profil de l'utilisateur
Eliboubann
Suprême swingueur (gueuse)
Suprême swingueur (gueuse)
Eliboubann

Féminin Nombre de messages : 2033
Age : 50
Localisation : Sous le soleil exactement, en pays cathare
Date d'inscription : 11/02/2007

la maison sur le port Empty
MessageSujet: Re: la maison sur le port   la maison sur le port EmptyVen 23 Fév - 17:05

stefasn a écrit:
Trio pour ceux qui ont guitar pro

Cliquez ici pour télécharger 2006121904La maison sur le port.gp4

Merci pour la tab. y a pu qu'à ...
Revenir en haut Aller en bas
Voir le profil de l'utilisateur
shadock la pompe
Swingueur (gueuse) manouche
Swingueur (gueuse) manouche
shadock la pompe

Masculin Nombre de messages : 533
Age : 56
Localisation : Hen Jé
Emploi : du tant qu'on à de l'amur
Date d'inscription : 17/07/2006

la maison sur le port Empty
MessageSujet: Re: la maison sur le port   la maison sur le port EmptyVen 30 Mar - 11:55

Corto a écrit:
Au fait, merci stefasn pour le fichier !! Cool

Oui merci corto

une question : ça veut dire quoi les lettres E Q S au dessus et pis 12b, 9h, L sur les lignes de cordes ?

J'débute dans le déchiffrage ...

@plus
Revenir en haut Aller en bas
Voir le profil de l'utilisateur
Corto
Suprême swingueur (gueuse)
Suprême swingueur (gueuse)
Corto

Masculin Nombre de messages : 1273
Age : 57
Localisation : Anjou..feu
Emploi : Grand voyageur immobile
Date d'inscription : 10/11/2006

la maison sur le port Empty
MessageSujet: Re: la maison sur le port   la maison sur le port EmptyVen 30 Mar - 20:21

Alors :

E Q S, c’est la durée des notes.

Q – quarter – noir
E - 8th – croche
S - 16th – double croche

Le reste, ce sont des indications de jeu :

Tablature Legend
----------------
L - tied note
x - dead note
g - grace note
(n) - ghost note
> - accentuded note
NH - natural harmonic
AH - artificial harmonic
TH - tapped harmonic
SH - semi harmonic
PH - pitch harmonic
h - hammer on
p - pull off
b - bend
br - bendRelease
pb - preBend
pbr - preBendRelease
brb - bendReleaseBend
\n/ - tremolo bar dip
\n - tremolo bar dive
-/n - tremolo bar Release up
/n\ - tremolo bar inverted dip
/n - tremolo bar return
-\n - tremolo bar Release down
S - shift slide
s - legato slide
/ - slide into from below or out of upwards
\ - slide into from above or out of downwards
~ - vibrato
W - wide vibrato
tr - trill
TP - tremolo picking
T - tapping
S - slap
P - pop
< - fade in
^ - brush up
v - brush down

Voilà Cool
Revenir en haut Aller en bas
Voir le profil de l'utilisateur
shadock la pompe
Swingueur (gueuse) manouche
Swingueur (gueuse) manouche
shadock la pompe

Masculin Nombre de messages : 533
Age : 56
Localisation : Hen Jé
Emploi : du tant qu'on à de l'amur
Date d'inscription : 17/07/2006

la maison sur le port Empty
MessageSujet: Re: la maison sur le port   la maison sur le port EmptySam 31 Mar - 12:54

Marci ~~~~ Very Happy
Revenir en haut Aller en bas
Voir le profil de l'utilisateur
pistou
Swingueur (gueuse) manouche
Swingueur (gueuse) manouche
pistou

Masculin Nombre de messages : 667
Age : 40
Localisation : Jaco Costa Rica
Emploi : tout nu et tout bronzè
Date d'inscription : 16/06/2007

la maison sur le port Empty
MessageSujet: Re: la maison sur le port   la maison sur le port EmptyMer 15 Aoû - 10:33

franchêment tres bon corto merci!!!! j'avais envie de la jouer!

les accords sont assimilés;.; reste a paufiner les interludes et autres interventions solées... rien de bien méchant en apparence!
Revenir en haut Aller en bas
Voir le profil de l'utilisateur
Contenu sponsorisé




la maison sur le port Empty
MessageSujet: Re: la maison sur le port   la maison sur le port Empty

Revenir en haut Aller en bas
 
la maison sur le port
Revenir en haut 
Page 1 sur 1
 Sujets similaires
-
» [T][P][V] 10.2008 : Port Aventura
» Maison en pain d'épice
» Campagne de Pub pour Port aventura
» Une vidéo inédite de Cooder à la maison en 1982!
» La Maison Quitientchaud

Permission de ce forum:Vous ne pouvez pas répondre aux sujets dans ce forum
Autour de Sanseverino - Le Forum :: Sanseverino - Généralités :: Tablatures-
Sauter vers: